ISO-10303-21;
HEADER;
FILE_DESCRIPTION (( 'STEP AP203' ),
    '1' );
FILE_NAME ('MQWP-12.7-532.STEP',
    '2020-12-22T09:28:51',
    ( '' ),
    ( '' ),
    'SwSTEP 2.0',
    'SolidWorks 2020',
    '' );
FILE_SCHEMA (( 'CONFIG_CONTROL_DESIGN' ));
ENDSEC;

DATA;
#1 = ADVANCED_FACE ( 'NONE', ( #34 ), #89, .T. ) ;
#2 = DATE_AND_TIME ( #162, #122 ) ;
#3 = PERSON_AND_ORGANIZATION ( #17, #131 ) ;
#4 = PLANE ( 'NONE',  #102 ) ;
#5 = DIRECTION ( 'NONE',  ( 0.000000000000000000, 0.000000000000000000, -1.000000000000000000 ) ) ;
#6 = VECTOR ( 'NONE', #138, 1000.000000000000000 ) ;
#7 = AXIS2_PLACEMENT_3D ( 'NONE', #165, #19, #129 ) ;
#8 = VERTEX_POINT ( 'NONE', #12 ) ;
#9 = DATE_TIME_ROLE ( 'creation_date' ) ;
#10 = CARTESIAN_POINT ( 'NONE',  ( 0.9999999999999995559, 0.000000000000000000, 0.000000000000000000 ) ) ;
#11 = PRODUCT_DEFINITION ( 'UNKNOWN', '', #45, #95 ) ;
#12 = CARTESIAN_POINT ( 'NONE',  ( 2.449293598294706907E-16, 0.000000000000000000, 3.000000000000000000 ) ) ;
#13 = CC_DESIGN_APPROVAL ( #124, ( #45 ) ) ;
#14 = PRODUCT ( 'MQWP-12.7-532', 'MQWP-12.7-532', '', ( #27 ) ) ;
#15 = COORDINATED_UNIVERSAL_TIME_OFFSET ( 8, 0, .AHEAD. ) ;
#16 = COORDINATED_UNIVERSAL_TIME_OFFSET ( 8, 0, .AHEAD. ) ;
#17 = PERSON ( 'UNSPECIFIED', 'UNSPECIFIED', 'UNSPECIFIED', ('UNSPECIFIED'), ('UNSPECIFIED'), ('UNSPECIFIED') ) ;
#18 = PERSON_AND_ORGANIZATION_ROLE ( 'design_owner' ) ;
#19 = DIRECTION ( 'NONE',  ( -1.000000000000000000, -0.000000000000000000, -0.000000000000000000 ) ) ;
#20 = CARTESIAN_POINT ( 'NONE',  ( 1.224646799147353454E-16, 3.000000000000000000, 0.000000000000000000 ) ) ;
#21 = EDGE_CURVE ( 'NONE', #78, #35, #57, .T. ) ;
#22 = CARTESIAN_POINT ( 'NONE',  ( 0.000000000000000000, 0.000000000000000000, 0.000000000000000000 ) ) ;
#23 = COORDINATED_UNIVERSAL_TIME_OFFSET ( 8, 0, .AHEAD. ) ;
#24 = DIRECTION ( 'NONE',  ( -1.000000000000000000, -0.000000000000000000, -0.000000000000000000 ) ) ;
#25 = APPLICATION_PROTOCOL_DEFINITION ( 'international standard', 'config_control_design', 1994, #117 ) ;
#26 = DATE_AND_TIME ( #133, #79 ) ;
#27 = MECHANICAL_CONTEXT ( 'NONE', #31, 'mechanical' ) ;
#28 = CARTESIAN_POINT ( 'NONE',  ( 2.449293598294706907E-16, 0.000000000000000000, 0.000000000000000000 ) ) ;
#29 = LOCAL_TIME ( 17, 28, 51.00000000000000000, #15 ) ;
#30 =( NAMED_UNIT ( * ) SI_UNIT ( $, .STERADIAN. ) SOLID_ANGLE_UNIT ( ) );
#31 = APPLICATION_CONTEXT ( 'configuration controlled 3d designs of mechanical parts and assemblies' ) ;
#32 = UNCERTAINTY_MEASURE_WITH_UNIT (LENGTH_MEASURE( 1.000000000000000082E-05 ), #112, 'distance_accuracy_value', 'NONE');
#33 = APPROVAL ( #120, 'UNSPECIFIED' ) ;
#34 = FACE_OUTER_BOUND ( 'NONE', #94, .T. ) ;
#35 = VERTEX_POINT ( 'NONE', #121 ) ;
#36 = PERSON_AND_ORGANIZATION ( #17, #131 ) ;
#37 = SECURITY_CLASSIFICATION_LEVEL ( 'unclassified' ) ;
#38 = AXIS2_PLACEMENT_3D ( 'NONE', #22, #24, #77 ) ;
#39 = DIRECTION ( 'NONE',  ( -0.000000000000000000, 0.000000000000000000, 1.000000000000000000 ) ) ;
#40 = LOCAL_TIME ( 17, 28, 51.00000000000000000, #16 ) ;
#41 =( NAMED_UNIT ( * ) PLANE_ANGLE_UNIT ( ) SI_UNIT ( $, .RADIAN. ) );
#42 = SECURITY_CLASSIFICATION ( '', '', #37 ) ;
#43 = VERTEX_POINT ( 'NONE', #169 ) ;
#44 = ORIENTED_EDGE ( 'NONE', *, *, #54, .T. ) ;
#45 = PRODUCT_DEFINITION_FORMATION_WITH_SPECIFIED_SOURCE ( 'ANY', '', #14, .NOT_KNOWN. ) ;
#46 = CARTESIAN_POINT ( 'NONE',  ( 2.449293598294706907E-16, 0.000000000000000000, 0.000000000000000000 ) ) ;
#47 = PRODUCT_RELATED_PRODUCT_CATEGORY ( 'detail', '', ( #14 ) ) ;
#48 = PERSON_AND_ORGANIZATION ( #17, #131 ) ;
#49 = EDGE_LOOP ( 'NONE', ( #156, #44 ) ) ;
#50 = PERSON_AND_ORGANIZATION_ROLE ( 'creator' ) ;
#51 = APPROVAL_ROLE ( '' ) ;
#52 = CC_DESIGN_SECURITY_CLASSIFICATION ( #42, ( #45 ) ) ;
#53 = COORDINATED_UNIVERSAL_TIME_OFFSET ( 8, 0, .AHEAD. ) ;
#54 = EDGE_CURVE ( 'NONE', #43, #8, #105, .T. ) ;
#55 = CARTESIAN_POINT ( 'NONE',  ( 0.9999999999999995559, 3.673940397442059868E-16, -3.000000000000000000 ) ) ;
#56 = CC_DESIGN_PERSON_AND_ORGANIZATION_ASSIGNMENT ( #137, #98, ( #42 ) ) ;
#57 = CIRCLE ( 'NONE', #153, 3.000000000000000000 ) ;
#58 = CARTESIAN_POINT ( 'NONE',  ( 0.000000000000000000, 3.673940397442059868E-16, -3.000000000000000000 ) ) ;
#59 = AXIS2_PLACEMENT_3D ( 'NONE', #28, #127, #100 ) ;
#60 =( GEOMETRIC_REPRESENTATION_CONTEXT ( 3 ) GLOBAL_UNCERTAINTY_ASSIGNED_CONTEXT ( ( #32 ) ) GLOBAL_UNIT_ASSIGNED_CONTEXT ( ( #112, #41, #30 ) ) REPRESENTATION_CONTEXT ( 'NONE', 'WORKASPACE' ) );
#61 = ORIENTED_EDGE ( 'NONE', *, *, #21, .F. ) ;
#62 = PERSON_AND_ORGANIZATION ( #17, #131 ) ;
#63 = DIRECTION ( 'NONE',  ( 0.000000000000000000, 0.000000000000000000, 1.000000000000000000 ) ) ;
#64 = DIRECTION ( 'NONE',  ( -1.000000000000000000, -0.000000000000000000, -0.000000000000000000 ) ) ;
#65 = APPROVAL_ROLE ( '' ) ;
#66 = EDGE_CURVE ( 'NONE', #78, #43, #69, .T. ) ;
#67 = AXIS2_PLACEMENT_3D ( 'NONE', #20, #128, #5 ) ;
#68 = PLANE ( 'NONE',  #67 ) ;
#69 = LINE ( 'NONE', #58, #6 ) ;
#70 = LINE ( 'NONE', #113, #154 ) ;
#71 = CC_DESIGN_APPROVAL ( #141, ( #11 ) ) ;
#72 = ADVANCED_FACE ( 'NONE', ( #87 ), #68, .F. ) ;
#73 = ORIENTED_EDGE ( 'NONE', *, *, #88, .T. ) ;
#74 = APPROVAL_PERSON_ORGANIZATION ( #91, #141, #110 ) ;
#75 = EDGE_LOOP ( 'NONE', ( #107, #157, #144, #155 ) ) ;
#76 = DATE_AND_TIME ( #99, #161 ) ;
#77 = DIRECTION ( 'NONE',  ( 0.000000000000000000, 0.000000000000000000, 1.000000000000000000 ) ) ;
#78 = VERTEX_POINT ( 'NONE', #55 ) ;
#79 = LOCAL_TIME ( 17, 28, 51.00000000000000000, #80 ) ;
#80 = COORDINATED_UNIVERSAL_TIME_OFFSET ( 8, 0, .AHEAD. ) ;
#81 = DIRECTION ( 'NONE',  ( 0.000000000000000000, 0.000000000000000000, 1.000000000000000000 ) ) ;
#82 = EDGE_CURVE ( 'NONE', #8, #43, #84, .T. ) ;
#83 = DIRECTION ( 'NONE',  ( -1.000000000000000000, -0.000000000000000000, -0.000000000000000000 ) ) ;
#84 = CIRCLE ( 'NONE', #59, 3.000000000000000000 ) ;
#85 = FACE_OUTER_BOUND ( 'NONE', #75, .T. ) ;
#86 = ADVANCED_FACE ( 'NONE', ( #140 ), #4, .F. ) ;
#87 = FACE_OUTER_BOUND ( 'NONE', #49, .T. ) ;
#88 = EDGE_CURVE ( 'NONE', #35, #8, #70, .T. ) ;
#89 = CYLINDRICAL_SURFACE ( 'NONE', #38, 3.000000000000000000 ) ;
#90 = CC_DESIGN_DATE_AND_TIME_ASSIGNMENT ( #174, #9, ( #11 ) ) ;
#91 = PERSON_AND_ORGANIZATION ( #17, #131 ) ;
#92 = ORIENTED_EDGE ( 'NONE', *, *, #119, .F. ) ;
#93 = DATE_AND_TIME ( #168, #40 ) ;
#94 = EDGE_LOOP ( 'NONE', ( #159, #135, #73, #167 ) ) ;
#95 = DESIGN_CONTEXT ( 'detailed design', #117, 'design' ) ;
#96 = PERSON_AND_ORGANIZATION_ROLE ( 'creator' ) ;
#97 = AXIS2_PLACEMENT_3D ( 'NONE', #147, #81, #145 ) ;
#98 = PERSON_AND_ORGANIZATION_ROLE ( 'classification_officer' ) ;
#99 = CALENDAR_DATE ( 2020, 22, 12 ) ;
#100 = DIRECTION ( 'NONE',  ( 0.000000000000000000, 0.000000000000000000, 1.000000000000000000 ) ) ;
#101 = CC_DESIGN_PERSON_AND_ORGANIZATION_ASSIGNMENT ( #62, #160, ( #45 ) ) ;
#102 = AXIS2_PLACEMENT_3D ( 'NONE', #103, #139, #39 ) ;
#103 = CARTESIAN_POINT ( 'NONE',  ( 0.9999999999999997780, 3.000000000000000000, 0.000000000000000000 ) ) ;
#104 = ADVANCED_BREP_SHAPE_REPRESENTATION ( 'MQWP-12.7-532', ( #170, #97 ), #60 ) ;
#105 = CIRCLE ( 'NONE', #115, 3.000000000000000000 ) ;
#106 = CIRCLE ( 'NONE', #7, 3.000000000000000000 ) ;
#107 = ORIENTED_EDGE ( 'NONE', *, *, #119, .T. ) ;
#108 = APPROVAL_STATUS ( 'not_yet_approved' ) ;
#109 = DIRECTION ( 'NONE',  ( 0.000000000000000000, 0.000000000000000000, 1.000000000000000000 ) ) ;
#110 = APPROVAL_ROLE ( '' ) ;
#111 = SHAPE_DEFINITION_REPRESENTATION ( #130, #104 ) ;
#112 =( LENGTH_UNIT ( ) NAMED_UNIT ( * ) SI_UNIT ( .MILLI., .METRE. ) );
#113 = CARTESIAN_POINT ( 'NONE',  ( 0.000000000000000000, 0.000000000000000000, 3.000000000000000000 ) ) ;
#114 = CYLINDRICAL_SURFACE ( 'NONE', #142, 3.000000000000000000 ) ;
#115 = AXIS2_PLACEMENT_3D ( 'NONE', #46, #173, #109 ) ;
#116 = DIRECTION ( 'NONE',  ( 0.000000000000000000, 0.000000000000000000, 1.000000000000000000 ) ) ;
#117 = APPLICATION_CONTEXT ( 'configuration controlled 3d designs of mechanical parts and assemblies' ) ;
#118 = APPROVAL_PERSON_ORGANIZATION ( #149, #33, #51 ) ;
#119 = EDGE_CURVE ( 'NONE', #35, #78, #106, .T. ) ;
#120 = APPROVAL_STATUS ( 'not_yet_approved' ) ;
#121 = CARTESIAN_POINT ( 'NONE',  ( 0.9999999999999995559, 0.000000000000000000, 3.000000000000000000 ) ) ;
#122 = LOCAL_TIME ( 17, 28, 51.00000000000000000, #53 ) ;
#123 = APPROVAL_STATUS ( 'not_yet_approved' ) ;
#124 = APPROVAL ( #108, 'UNSPECIFIED' ) ;
#125 = APPROVAL_DATE_TIME ( #93, #33 ) ;
#126 = CC_DESIGN_PERSON_AND_ORGANIZATION_ASSIGNMENT ( #3, #96, ( #11 ) ) ;
#127 = DIRECTION ( 'NONE',  ( -1.000000000000000000, -0.000000000000000000, -0.000000000000000000 ) ) ;
#128 = DIRECTION ( 'NONE',  ( 1.000000000000000000, 0.000000000000000000, 0.000000000000000000 ) ) ;
#129 = DIRECTION ( 'NONE',  ( 0.000000000000000000, 0.000000000000000000, 1.000000000000000000 ) ) ;
#130 = PRODUCT_DEFINITION_SHAPE ( 'NONE', 'NONE',  #11 ) ;
#131 = ORGANIZATION ( 'UNSPECIFIED', 'UNSPECIFIED', '' ) ;
#132 = APPROVAL_PERSON_ORGANIZATION ( #48, #124, #65 ) ;
#133 = CALENDAR_DATE ( 2020, 22, 12 ) ;
#134 = APPLICATION_PROTOCOL_DEFINITION ( 'international standard', 'config_control_design', 1994, #31 ) ;
#135 = ORIENTED_EDGE ( 'NONE', *, *, #21, .T. ) ;
#136 = APPROVAL_DATE_TIME ( #26, #141 ) ;
#137 = PERSON_AND_ORGANIZATION ( #17, #131 ) ;
#138 = DIRECTION ( 'NONE',  ( -1.000000000000000000, -0.000000000000000000, -0.000000000000000000 ) ) ;
#139 = DIRECTION ( 'NONE',  ( -1.000000000000000000, 0.000000000000000000, -0.000000000000000000 ) ) ;
#140 = FACE_OUTER_BOUND ( 'NONE', #146, .T. ) ;
#141 = APPROVAL ( #123, 'UNSPECIFIED' ) ;
#142 = AXIS2_PLACEMENT_3D ( 'NONE', #163, #164, #116 ) ;
#143 = CC_DESIGN_DATE_AND_TIME_ASSIGNMENT ( #2, #150, ( #42 ) ) ;
#144 = ORIENTED_EDGE ( 'NONE', *, *, #82, .F. ) ;
#145 = DIRECTION ( 'NONE',  ( 1.000000000000000000, 0.000000000000000000, 0.000000000000000000 ) ) ;
#146 = EDGE_LOOP ( 'NONE', ( #92, #61 ) ) ;
#147 = CARTESIAN_POINT ( 'NONE',  ( 0.000000000000000000, 0.000000000000000000, 0.000000000000000000 ) ) ;
#148 = PERSON_AND_ORGANIZATION ( #17, #131 ) ;
#149 = PERSON_AND_ORGANIZATION ( #17, #131 ) ;
#150 = DATE_TIME_ROLE ( 'classification_date' ) ;
#151 = CLOSED_SHELL ( 'NONE', ( #152, #1, #86, #72 ) ) ;
#152 = ADVANCED_FACE ( 'NONE', ( #85 ), #114, .T. ) ;
#153 = AXIS2_PLACEMENT_3D ( 'NONE', #10, #64, #63 ) ;
#154 = VECTOR ( 'NONE', #83, 1000.000000000000000 ) ;
#155 = ORIENTED_EDGE ( 'NONE', *, *, #88, .F. ) ;
#156 = ORIENTED_EDGE ( 'NONE', *, *, #82, .T. ) ;
#157 = ORIENTED_EDGE ( 'NONE', *, *, #66, .T. ) ;
#158 = APPROVAL_DATE_TIME ( #76, #124 ) ;
#159 = ORIENTED_EDGE ( 'NONE', *, *, #66, .F. ) ;
#160 = PERSON_AND_ORGANIZATION_ROLE ( 'design_supplier' ) ;
#161 = LOCAL_TIME ( 17, 28, 51.00000000000000000, #23 ) ;
#162 = CALENDAR_DATE ( 2020, 22, 12 ) ;
#163 = CARTESIAN_POINT ( 'NONE',  ( 0.000000000000000000, 0.000000000000000000, 0.000000000000000000 ) ) ;
#164 = DIRECTION ( 'NONE',  ( -1.000000000000000000, -0.000000000000000000, -0.000000000000000000 ) ) ;
#165 = CARTESIAN_POINT ( 'NONE',  ( 0.9999999999999995559, 0.000000000000000000, 0.000000000000000000 ) ) ;
#166 = CC_DESIGN_PERSON_AND_ORGANIZATION_ASSIGNMENT ( #36, #18, ( #14 ) ) ;
#167 = ORIENTED_EDGE ( 'NONE', *, *, #54, .F. ) ;
#168 = CALENDAR_DATE ( 2020, 22, 12 ) ;
#169 = CARTESIAN_POINT ( 'NONE',  ( 2.449293598294706907E-16, 3.673940397442059868E-16, -3.000000000000000000 ) ) ;
#170 = MANIFOLD_SOLID_BREP ( 'Ðý×', #151 ) ;
#171 = CC_DESIGN_APPROVAL ( #33, ( #42 ) ) ;
#172 = CALENDAR_DATE ( 2020, 22, 12 ) ;
#173 = DIRECTION ( 'NONE',  ( -1.000000000000000000, -0.000000000000000000, -0.000000000000000000 ) ) ;
#174 = DATE_AND_TIME ( #172, #29 ) ;
#175 = CC_DESIGN_PERSON_AND_ORGANIZATION_ASSIGNMENT ( #148, #50, ( #45 ) ) ;
ENDSEC;
END-ISO-10303-21;
